ISO-10303-21;
HEADER;
FILE_DESCRIPTION (( 'STEP AP214' ),
    '1' );
FILE_NAME ('FULLVAC BT1KF252540.STEP',
    '2019-04-24T08:16:15',
    ( '' ),
    ( '' ),
    'SwSTEP 2.0',
    'SolidWorks 2017',
    '' );
FILE_SCHEMA (( 'AUTOMOTIVE_DESIGN' ));
ENDSEC;

DATA;
#1 = CARTESIAN_POINT ( 'NONE',  ( -3.099299419155044300, -39.25881904510259800, 19.62940952255129900 ) ) ;
#2 = CARTESIAN_POINT ( 'NONE',  ( -2.851678778707476900, 39.99999999999999300, -19.99999999999999600 ) ) ;
#3 = CARTESIAN_POINT ( 'NONE',  ( 0.0000000000000000000, -9.442564829413301300E-016, 3.700743415417190100E-016 ) ) ;
#4 = FILL_AREA_STYLE_COLOUR ( '', #198 ) ;
#5 = EDGE_LOOP ( 'NONE', ( #103 ) ) ;
#6 = APPLICATION_PROTOCOL_DEFINITION ( 'draft international standard', 'automotive_design', 1998, #97 ) ;
#7 = CARTESIAN_POINT ( 'NONE',  ( -4.956029104747200300, 0.0000000000000000000, 12.69999999999999900 ) ) ;
#8 = PRESENTATION_STYLE_ASSIGNMENT (( #192 ) ) ;
#9 = EDGE_LOOP ( 'NONE', ( #53 ) ) ;
#10 = PRODUCT_RELATED_PRODUCT_CATEGORY ( 'part', '', ( #176 ) ) ;
#11 = FACE_BOUND ( 'NONE', #49, .T. ) ;
#12 = ORIENTED_EDGE ( 'NONE', *, *, #160, .F. ) ;
#13 = AXIS2_PLACEMENT_3D ( 'NONE', #111, #162, #166 ) ;
#14 = PRODUCT_DEFINITION_SHAPE ( 'NONE', 'NONE',  #194 ) ;
#15 = FACE_OUTER_BOUND ( 'NONE', #256, .T. ) ;
#16 = CARTESIAN_POINT ( 'NONE',  ( -3.099299419155044300, 0.0000000000000000000, 19.62940952255129900 ) ) ;
#17 = SHAPE_DEFINITION_REPRESENTATION ( #14, #189 ) ;
#18 = ORIENTED_EDGE ( 'NONE', *, *, #106, .T. ) ;
#19 = CARTESIAN_POINT ( 'NONE',  ( -3.099299419168994400, 0.0000000000000000000, 0.0000000000000000000 ) ) ;
#20 = CARTESIAN_POINT ( 'NONE',  ( -40.00000000000000000, 0.0000000000000000000, 0.0000000000000000000 ) ) ;
#21 =( GEOMETRIC_REPRESENTATION_CONTEXT ( 3 ) GLOBAL_UNCERTAINTY_ASSIGNED_CONTEXT ( ( #173 ) ) GLOBAL_UNIT_ASSIGNED_CONTEXT ( ( #186, #74, #231 ) ) REPRESENTATION_CONTEXT ( 'NONE', 'WORKASPACE' ) );
#22 = EDGE_LOOP ( 'NONE', ( #57 ) ) ;
#23 = CARTESIAN_POINT ( 'NONE',  ( -2.616336506010520100, -39.99999999999999300, 19.99999999999999600 ) ) ;
#24 = DIRECTION ( 'NONE',  ( 0.0000000000000000000, 0.0000000000000000000, 1.000000000000000000 ) ) ;
#25 = DIRECTION ( 'NONE',  ( 1.000000000000000000, -0.0000000000000000000, 0.0000000000000000000 ) ) ;
#26 = EDGE_LOOP ( 'NONE', ( #233 ) ) ;
#27 = DIRECTION ( 'NONE',  ( 0.0000000000000000000, 0.0000000000000000000, -1.000000000000000000 ) ) ;
#28 = CIRCLE ( 'NONE', #13, 20.00000000000000000 ) ;
#29 = FILL_AREA_STYLE ('',( #4 ) ) ;
#30 = FACE_OUTER_BOUND ( 'NONE', #52, .T. ) ;
#31 = AXIS2_PLACEMENT_3D ( 'NONE', #20, #253, #183 ) ;
#32 = AXIS2_PLACEMENT_3D ( 'NONE', #203, #25, #146 ) ;
#33 = CIRCLE ( 'NONE', #76, 11.05000000000000100 ) ;
#34 = DIRECTION ( 'NONE',  ( 0.0000000000000000000, 0.0000000000000000000, 1.000000000000000000 ) ) ;
#35 = DIRECTION ( 'NONE',  ( 2.209342407859410500E-017, 1.000000000000000000, 0.0000000000000000000 ) ) ;
#36 = PRESENTATION_LAYER_ASSIGNMENT (  '', '', ( #125 ) ) ;
#37 = DIRECTION ( 'NONE',  ( -1.000000000000000000, 0.0000000000000000000, 0.0000000000000000000 ) ) ;
#38 = DIRECTION ( 'NONE',  ( 0.0000000000000000000, 0.0000000000000000000, 1.000000000000000000 ) ) ;
#39 = EDGE_CURVE ( 'NONE', #69, #69, #237, .T. ) ;
#40 = CARTESIAN_POINT ( 'NONE',  ( 0.0000000000000000000, 0.0000000000000000000, 0.0000000000000000000 ) ) ;
#41 = ORIENTED_EDGE ( 'NONE', *, *, #131, .F. ) ;
#42 = DIRECTION ( 'NONE',  ( 1.000000000000000000, -0.0000000000000000000, 0.0000000000000000000 ) ) ;
#43 = CARTESIAN_POINT ( 'NONE',  ( -2.616336506010520100, -39.99999999999999300, -19.99999999999999600 ) ) ;
#44 = CARTESIAN_POINT ( 'NONE',  ( -2.851678778707476900, 39.99999999999999300, 19.99999999999999600 ) ) ;
#45 = EDGE_CURVE ( 'NONE', #101, #101, #248, .T. ) ;
#46 = MECHANICAL_DESIGN_GEOMETRIC_PRESENTATION_REPRESENTATION (  '', ( #125 ), #21 ) ;
#47 = DIRECTION ( 'NONE',  ( 0.0000000000000000000, 0.0000000000000000000, 1.000000000000000000 ) ) ;
#48 =( NAMED_UNIT ( * ) SI_UNIT ( $, .STERADIAN. ) SOLID_ANGLE_UNIT ( ) );
#49 = EDGE_LOOP ( 'NONE', ( #180 ) ) ;
#50 = VERTEX_POINT ( 'NONE', #7 ) ;
#51 = SURFACE_STYLE_FILL_AREA ( #54 ) ;
#52 = EDGE_LOOP ( 'NONE', ( #135 ) ) ;
#53 = ORIENTED_EDGE ( 'NONE', *, *, #120, .T. ) ;
#54 = FILL_AREA_STYLE ('',( #236 ) ) ;
#55 = AXIS2_PLACEMENT_3D ( 'NONE', #156, #86, #215 ) ;
#56 = CARTESIAN_POINT ( 'NONE',  ( -3.099299419168994400, 0.0000000000000000000, 0.0000000000000000000 ) ) ;
#57 = ORIENTED_EDGE ( 'NONE', *, *, #131, .T. ) ;
#58 = DIRECTION ( 'NONE',  ( -1.000000000000000000, 0.0000000000000000000, 0.0000000000000000000 ) ) ;
#59 = AXIS2_PLACEMENT_3D ( 'NONE', #211, #71, #118 ) ;
#60 = DIRECTION ( 'NONE',  ( -1.000000000000000000, 0.0000000000000000000, 0.0000000000000000000 ) ) ;
#61 = CARTESIAN_POINT ( 'NONE',  ( -3.038388356863343600, -39.71346540353366800, -19.85673270176683400 ) ) ;
#62 = CARTESIAN_POINT ( 'NONE',  ( -2.616336506010520100, 39.99999999999999300, 19.99999999999999600 ) ) ;
#63 = SURFACE_STYLE_FILL_AREA ( #29 ) ;
#64 = EDGE_LOOP ( 'NONE', ( #249 ) ) ;
#65 = CARTESIAN_POINT ( 'NONE',  ( -2.851678778707476900, 0.0000000000000000000, 19.99999999999999300 ) ) ;
#66 = CARTESIAN_POINT ( 'NONE',  ( -3.099299419155044300, 0.0000000000000000000, -19.62940952255129900 ) ) ;
#67 = ADVANCED_FACE ( 'NONE', ( #224, #157 ), #116, .T. ) ;
#68 = PRODUCT_DEFINITION_FORMATION_WITH_SPECIFIED_SOURCE ( 'ANY', '', #176, .NOT_KNOWN. ) ;
#69 = VERTEX_POINT ( 'NONE', #152 ) ;
#70 = CIRCLE ( 'NONE', #207, 19.62940952255503300 ) ;
#71 = DIRECTION ( 'NONE',  ( 0.0000000000000000000, 0.0000000000000000000, 1.000000000000000000 ) ) ;
#72 = UNCERTAINTY_MEASURE_WITH_UNIT (LENGTH_MEASURE( 1.000000000000000100E-005 ), #98, 'distance_accuracy_value', 'NONE');
#73 = AXIS2_PLACEMENT_3D ( 'NONE', #126, #108, #254 ) ;
#74 =( NAMED_UNIT ( * ) PLANE_ANGLE_UNIT ( ) SI_UNIT ( $, .RADIAN. ) );
#75 = PRESENTATION_STYLE_ASSIGNMENT (( #182 ) ) ;
#76 = AXIS2_PLACEMENT_3D ( 'NONE', #139, #58, #34 ) ;
#77 = UNCERTAINTY_MEASURE_WITH_UNIT (LENGTH_MEASURE( 1.000000000000000100E-005 ), #140, 'distance_accuracy_value', 'NONE');
#78 =( NAMED_UNIT ( * ) PLANE_ANGLE_UNIT ( ) SI_UNIT ( $, .RADIAN. ) );
#79 = PRODUCT_DEFINITION_CONTEXT ( 'detailed design', #188, 'design' ) ;
#80 = FACE_OUTER_BOUND ( 'NONE', #214, .T. ) ;
#81 = PLANE ( 'NONE',  #32 ) ;
#82 = CYLINDRICAL_SURFACE ( 'NONE', #177, 20.00000000000000000 ) ;
#83 = EDGE_LOOP ( 'NONE', ( #221 ) ) ;
#84 = AXIS2_PLACEMENT_3D ( 'NONE', #147, #91, #24 ) ;
#85 = DIRECTION ( 'NONE',  ( 0.0000000000000000000, 0.0000000000000000000, 1.000000000000000000 ) ) ;
#86 = DIRECTION ( 'NONE',  ( -1.000000000000000000, 0.0000000000000000000, 0.0000000000000000000 ) ) ;
#87 = EDGE_CURVE ( 'NONE', #250, #250, #33, .T. ) ;
#88 = ADVANCED_FACE ( 'NONE', ( #179, #30 ), #130, .T. ) ;
#89 = EDGE_LOOP ( 'NONE', ( #12 ) ) ;
#90 = ADVANCED_FACE ( 'NONE', ( #169, #134 ), #82, .T. ) ;
#91 = DIRECTION ( 'NONE',  ( -1.000000000000000000, 0.0000000000000000000, 0.0000000000000000000 ) ) ;
#92 = CARTESIAN_POINT ( 'NONE',  ( -2.851678778707476900, -39.99999999999999300, -19.99999999999999600 ) ) ;
#93 = CARTESIAN_POINT ( 'NONE',  ( -3.038388356863343600, 39.71346540353366800, 19.85673270176683400 ) ) ;
#94 = FACE_OUTER_BOUND ( 'NONE', #155, .T. ) ;
#95 = CARTESIAN_POINT ( 'NONE',  ( -2.851678778707476900, 0.0000000000000000000, -19.99999999999999300 ) ) ;
#96 = AXIS2_PLACEMENT_3D ( 'NONE', #161, #252, #251 ) ;
#97 = APPLICATION_CONTEXT ( 'automotive_design' ) ;
#98 =( LENGTH_UNIT ( ) NAMED_UNIT ( * ) SI_UNIT ( .MILLI., .METRE. ) );
#99 = CARTESIAN_POINT ( 'NONE',  ( -3.099299419168994000, 19.62940952255503300, 0.0000000000000000000 ) ) ;
#100 = FACE_OUTER_BOUND ( 'NONE', #122, .T. ) ;
#101 = VERTEX_POINT ( 'NONE', #136 ) ;
#102 = FACE_BOUND ( 'NONE', #83, .T. ) ;
#103 = ORIENTED_EDGE ( 'NONE', *, *, #160, .T. ) ;
#104 = MANIFOLD_SOLID_BREP ( '\X2\5BE69AD4\X0\1', #217 ) ;
#105 = DIRECTION ( 'NONE',  ( -1.000000000000000000, 0.0000000000000000000, 0.0000000000000000000 ) ) ;
#106 = EDGE_CURVE ( 'NONE', #247, #247, #190, .T. ) ;
#107 = DIRECTION ( 'NONE',  ( 0.0000000000000000000, 0.0000000000000000000, -1.000000000000000000 ) ) ;
#108 = DIRECTION ( 'NONE',  ( -1.000000000000000000, 0.0000000000000000000, 0.0000000000000000000 ) ) ;
#109 = CARTESIAN_POINT ( 'NONE',  ( 0.0000000000000000000, 0.0000000000000000000, 0.0000000000000000000 ) ) ;
#110 = CARTESIAN_POINT ( 'NONE',  ( -3.099299419155044300, 0.0000000000000000000, 19.62940952255129900 ) ) ;
#111 = CARTESIAN_POINT ( 'NONE',  ( 0.0000000000000000000, 0.0000000000000000000, 0.0000000000000000000 ) ) ;
#112 = ORIENTED_EDGE ( 'NONE', *, *, #120, .F. ) ;
#113 = CARTESIAN_POINT ( 'NONE',  ( -2.616336506010520100, 0.0000000000000000000, 20.00000000000000000 ) ) ;
#114 = CARTESIAN_POINT ( 'NONE',  ( -2.616336506010520100, 0.0000000000000000000, -20.00000000000000000 ) ) ;
#115 = CYLINDRICAL_SURFACE ( 'NONE', #235, 11.05000000000000100 ) ;
#116 = CONICAL_SURFACE ( 'NONE', #150, 19.62940952255503300, 1.308996939000000000 ) ;
#117 = ORIENTED_EDGE ( 'NONE', *, *, #232, .F. ) ;
#118 = DIRECTION ( 'NONE',  ( 1.000000000000000000, 0.0000000000000000000, 0.0000000000000000000 ) ) ;
#119 = EDGE_LOOP ( 'NONE', ( #209 ) ) ;
#120 = EDGE_CURVE ( 'NONE', #178, #178, #70, .T. ) ;
#121 = FACE_OUTER_BOUND ( 'NONE', #89, .T. ) ;
#122 = EDGE_LOOP ( 'NONE', ( #171 ) ) ;
#123 = ORIENTED_EDGE ( 'NONE', *, *, #87, .T. ) ;
#124 = DIRECTION ( 'NONE',  ( 0.0000000000000000000, 0.0000000000000000000, 1.000000000000000000 ) ) ;
#125 = STYLED_ITEM ( 'NONE', ( #8 ), #189 ) ;
#126 = CARTESIAN_POINT ( 'NONE',  ( 0.0000000000000000000, 0.0000000000000000000, 0.0000000000000000000 ) ) ;
#127 = COLOUR_RGB ( '',0.7450980392156862900, 0.7450980392156862900, 0.7450980392156862900 ) ;
#128 = CARTESIAN_POINT ( 'NONE',  ( -3.099299419155044300, -39.25881904510259800, -19.62940952255129900 ) ) ;
#129 = CARTESIAN_POINT ( 'NONE',  ( -2.616336506010520100, 0.0000000000000000000, 20.00000000000000000 ) ) ;
#130 = CYLINDRICAL_SURFACE ( 'NONE', #240, 12.69999999999999900 ) ;
#131 = EDGE_CURVE ( 'NONE', #234, #234, #242, .T. ) ;
#132 = CARTESIAN_POINT ( 'NONE',  ( -2.540000000000000000, 0.0000000000000000000, 13.10000000000000100 ) ) ;
#133 = CARTESIAN_POINT ( 'NONE',  ( 0.0000000000000000000, 0.0000000000000000000, 0.0000000000000000000 ) ) ;
#134 = FACE_OUTER_BOUND ( 'NONE', #5, .T. ) ;
#135 = ORIENTED_EDGE ( 'NONE', *, *, #232, .T. ) ;
#136 = CARTESIAN_POINT ( 'NONE',  ( -2.616336506010520100, 0.0000000000000000000, 20.00000000000000000 ) ) ;
#137 = FACE_OUTER_BOUND ( 'NONE', #64, .T. ) ;
#138 = EDGE_LOOP ( 'NONE', ( #112 ) ) ;
#139 = CARTESIAN_POINT ( 'NONE',  ( -40.00000000000000000, 0.0000000000000000000, 0.0000000000000000000 ) ) ;
#140 =( LENGTH_UNIT ( ) NAMED_UNIT ( * ) SI_UNIT ( .MILLI., .METRE. ) );
#141 = SURFACE_SIDE_STYLE ('',( #51 ) ) ;
#142 = DIRECTION ( 'NONE',  ( -1.000000000000000000, -0.0000000000000000000, -0.0000000000000000000 ) ) ;
#143 = CARTESIAN_POINT ( 'NONE',  ( -3.038388356863343200, 0.0000000000000000000, -19.85673270176684800 ) ) ;
#144 = CARTESIAN_POINT ( 'NONE',  ( -3.038388356863343600, -39.71346540353366800, 19.85673270176683400 ) ) ;
#145 = FACE_OUTER_BOUND ( 'NONE', #138, .T. ) ;
#146 = DIRECTION ( 'NONE',  ( 0.0000000000000000000, 0.0000000000000000000, -1.000000000000000000 ) ) ;
#147 = CARTESIAN_POINT ( 'NONE',  ( 0.0000000000000000000, 0.0000000000000000000, 0.0000000000000000000 ) ) ;
#148 = APPLICATION_PROTOCOL_DEFINITION ( 'draft international standard', 'automotive_design', 1998, #188 ) ;
#149 = FACE_OUTER_BOUND ( 'NONE', #119, .T. ) ;
#150 = AXIS2_PLACEMENT_3D ( 'NONE', #56, #201, #107 ) ;
#151 = PRODUCT_CONTEXT ( 'NONE', #97, 'mechanical' ) ;
#152 = CARTESIAN_POINT ( 'NONE',  ( -40.00000000000000000, 0.0000000000000000000, 12.69999999999999900 ) ) ;
#153 = STYLED_ITEM ( 'NONE', ( #75 ), #104 ) ;
#154 = ORIENTED_EDGE ( 'NONE', *, *, #195, .F. ) ;
#155 = EDGE_LOOP ( 'NONE', ( #41 ) ) ;
#156 = CARTESIAN_POINT ( 'NONE',  ( -2.616336506010520100, 0.0000000000000000000, 0.0000000000000000000 ) ) ;
#157 = FACE_BOUND ( 'NONE', #230, .T. ) ;
#158 =( BOUNDED_SURFACE ( )  B_SPLINE_SURFACE ( 3, 3, ( 
 ( #16, #164, #184, #66, #128, #1, #110 ),
 ( #165, #93, #238, #143, #61, #144, #222 ),
 ( #65, #44, #2, #95, #92, #202, #223 ),
 ( #113, #62, #239, #114, #43, #23, #129 ) ),
 .UNSPECIFIED., .F., .T., .T. ) 
 B_SPLINE_SURFACE_WITH_KNOTS ( ( 4, 4 ),
 ( 4, 3, 4 ),
 ( 0.0000000000000000000, 1.000000000000000000 ),
 ( 0.0000000000000000000, 0.5000000000000000000, 1.000000000000000000 ),
 .UNSPECIFIED. ) 
 GEOMETRIC_REPRESENTATION_ITEM ( )  RATIONAL_B_SPLINE_SURFACE ( (
 ( 1.000000000000000000, 0.3333333333333333100, 0.3333333333333333100, 1.000000000000000000, 0.3333333333333333100, 0.3333333333333333100, 1.000000000000000000),
 ( 0.8622355601941725800, 0.2874118533980575300, 0.2874118533980575300, 0.8622355601941725800, 0.2874118533980575300, 0.2874118533980575300, 0.8622355601941725800),
 ( 0.8622355601941725800, 0.2874118533980575300, 0.2874118533980575300, 0.8622355601941725800, 0.2874118533980575300, 0.2874118533980575300, 0.8622355601941725800),
 ( 1.000000000000000000, 0.3333333333333333100, 0.3333333333333333100, 1.000000000000000000, 0.3333333333333333100, 0.3333333333333333100, 1.000000000000000000) ) ) 
 REPRESENTATION_ITEM ( '' )  SURFACE ( )  );
#159 = ADVANCED_FACE ( 'NONE', ( #15, #137 ), #196, .F. ) ;
#160 = EDGE_CURVE ( 'NONE', #213, #213, #28, .T. ) ;
#161 = CARTESIAN_POINT ( 'NONE',  ( -2.540000000000000000, 0.0000000000000000000, 0.0000000000000000000 ) ) ;
#162 = DIRECTION ( 'NONE',  ( -1.000000000000000000, 0.0000000000000000000, 0.0000000000000000000 ) ) ;
#163 = ADVANCED_FACE ( 'NONE', ( #145, #100 ), #158, .T. ) ;
#164 = CARTESIAN_POINT ( 'NONE',  ( -3.099299419155044300, 39.25881904510259800, 19.62940952255129900 ) ) ;
#165 = CARTESIAN_POINT ( 'NONE',  ( -3.038388356863343200, 0.0000000000000000000, 19.85673270176684800 ) ) ;
#166 = DIRECTION ( 'NONE',  ( 0.0000000000000000000, 0.0000000000000000000, 1.000000000000000000 ) ) ;
#167 = DIRECTION ( 'NONE',  ( -1.000000000000000000, 0.0000000000000000000, 0.0000000000000000000 ) ) ;
#168 = VERTEX_POINT ( 'NONE', #244 ) ;
#169 = FACE_OUTER_BOUND ( 'NONE', #26, .T. ) ;
#170 = MECHANICAL_DESIGN_GEOMETRIC_PRESENTATION_REPRESENTATION (  '', ( #153 ), #181 ) ;
#171 = ORIENTED_EDGE ( 'NONE', *, *, #45, .T. ) ;
#172 = SURFACE_SIDE_STYLE ('',( #63 ) ) ;
#173 = UNCERTAINTY_MEASURE_WITH_UNIT (LENGTH_MEASURE( 1.000000000000000100E-005 ), #186, 'distance_accuracy_value', 'NONE');
#174 = CIRCLE ( 'NONE', #227, 12.69999999999999900 ) ;
#175 = AXIS2_PLACEMENT_3D ( 'NONE', #3, #205, #27 ) ;
#176 = PRODUCT ( 'FULLVAC BT1KF252540', 'FULLVAC BT1KF252540', '', ( #151 ) ) ;
#177 = AXIS2_PLACEMENT_3D ( 'NONE', #40, #60, #124 ) ;
#178 = VERTEX_POINT ( 'NONE', #99 ) ;
#179 = FACE_OUTER_BOUND ( 'NONE', #191, .T. ) ;
#180 = ORIENTED_EDGE ( 'NONE', *, *, #87, .F. ) ;
#181 =( GEOMETRIC_REPRESENTATION_CONTEXT ( 3 ) GLOBAL_UNCERTAINTY_ASSIGNED_CONTEXT ( ( #77 ) ) GLOBAL_UNIT_ASSIGNED_CONTEXT ( ( #140, #78, #200 ) ) REPRESENTATION_CONTEXT ( 'NONE', 'WORKASPACE' ) );
#182 = SURFACE_STYLE_USAGE ( .BOTH. , #141 ) ;
#183 = DIRECTION ( 'NONE',  ( 0.0000000000000000000, 0.0000000000000000000, 1.000000000000000000 ) ) ;
#184 = CARTESIAN_POINT ( 'NONE',  ( -3.099299419155044300, 39.25881904510259800, -19.62940952255129900 ) ) ;
#185 = PLANE ( 'NONE',  #197 ) ;
#186 =( LENGTH_UNIT ( ) NAMED_UNIT ( * ) SI_UNIT ( .MILLI., .METRE. ) );
#187 = ADVANCED_FACE ( 'NONE', ( #11, #149 ), #81, .F. ) ;
#188 = APPLICATION_CONTEXT ( 'automotive_design' ) ;
#189 = ADVANCED_BREP_SHAPE_REPRESENTATION ( 'FULLVAC BT1KF252540', ( #104, #59 ), #246 ) ;
#190 = CIRCLE ( 'NONE', #96, 13.10000000000000100 ) ;
#191 = EDGE_LOOP ( 'NONE', ( #226 ) ) ;
#192 = SURFACE_STYLE_USAGE ( .BOTH. , #172 ) ;
#193 = FACE_OUTER_BOUND ( 'NONE', #208, .T. ) ;
#194 = PRODUCT_DEFINITION ( 'UNKNOWN', '', #68, #79 ) ;
#195 = EDGE_CURVE ( 'NONE', #168, #168, #199, .T. ) ;
#196 = CYLINDRICAL_SURFACE ( 'NONE', #73, 13.10000000000000100 ) ;
#197 = AXIS2_PLACEMENT_3D ( 'NONE', #219, #42, #243 ) ;
#198 = COLOUR_RGB ( '',0.7450980392156862900, 0.7450980392156862900, 0.7450980392156862900 ) ;
#199 = CIRCLE ( 'NONE', #84, 13.10000000000000100 ) ;
#200 =( NAMED_UNIT ( * ) SI_UNIT ( $, .STERADIAN. ) SOLID_ANGLE_UNIT ( ) );
#201 = DIRECTION ( 'NONE',  ( 1.000000000000000000, 0.0000000000000000000, -1.104671203929705200E-017 ) ) ;
#202 = CARTESIAN_POINT ( 'NONE',  ( -2.851678778707476900, -39.99999999999999300, 19.99999999999999600 ) ) ;
#203 = CARTESIAN_POINT ( 'NONE',  ( -40.00000000000000000, -2.913971193241879800E-016, 7.124026915581379500E-016 ) ) ;
#204 = ADVANCED_FACE ( 'NONE', ( #102, #121 ), #257, .T. ) ;
#205 = DIRECTION ( 'NONE',  ( 1.000000000000000000, -0.0000000000000000000, 0.0000000000000000000 ) ) ;
#206 = CARTESIAN_POINT ( 'NONE',  ( -4.956029104747200300, 0.0000000000000000000, 0.0000000000000000000 ) ) ;
#207 = AXIS2_PLACEMENT_3D ( 'NONE', #19, #142, #35 ) ;
#208 = EDGE_LOOP ( 'NONE', ( #18 ) ) ;
#209 = ORIENTED_EDGE ( 'NONE', *, *, #39, .F. ) ;
#210 = CARTESIAN_POINT ( 'NONE',  ( 0.0000000000000000000, 0.0000000000000000000, 20.00000000000000000 ) ) ;
#211 = CARTESIAN_POINT ( 'NONE',  ( 0.0000000000000000000, 0.0000000000000000000, 0.0000000000000000000 ) ) ;
#212 = DIRECTION ( 'NONE',  ( 0.0000000000000000000, 0.0000000000000000000, 1.000000000000000000 ) ) ;
#213 = VERTEX_POINT ( 'NONE', #210 ) ;
#214 = EDGE_LOOP ( 'NONE', ( #123 ) ) ;
#215 = DIRECTION ( 'NONE',  ( 0.0000000000000000000, 0.0000000000000000000, 1.000000000000000000 ) ) ;
#216 = CARTESIAN_POINT ( 'NONE',  ( -2.540000000000000000, 0.0000000000000000000, 0.0000000000000000000 ) ) ;
#217 = CLOSED_SHELL ( 'NONE', ( #88, #187, #67, #258, #163, #225, #90, #159, #204 ) ) ;
#218 = AXIS2_PLACEMENT_3D ( 'NONE', #216, #105, #85 ) ;
#219 = CARTESIAN_POINT ( 'NONE',  ( -2.540000000000000000, -2.824994973600909800E-016, 6.986896036271009900E-016 ) ) ;
#220 = FACE_BOUND ( 'NONE', #22, .T. ) ;
#221 = ORIENTED_EDGE ( 'NONE', *, *, #195, .T. ) ;
#222 = CARTESIAN_POINT ( 'NONE',  ( -3.038388356863343200, 0.0000000000000000000, 19.85673270176684800 ) ) ;
#223 = CARTESIAN_POINT ( 'NONE',  ( -2.851678778707476900, 0.0000000000000000000, 19.99999999999999300 ) ) ;
#224 = FACE_OUTER_BOUND ( 'NONE', #9, .T. ) ;
#225 = ADVANCED_FACE ( 'NONE', ( #220, #193 ), #185, .T. ) ;
#226 = ORIENTED_EDGE ( 'NONE', *, *, #39, .T. ) ;
#227 = AXIS2_PLACEMENT_3D ( 'NONE', #206, #167, #212 ) ;
#228 =( NAMED_UNIT ( * ) PLANE_ANGLE_UNIT ( ) SI_UNIT ( $, .RADIAN. ) );
#229 = CARTESIAN_POINT ( 'NONE',  ( -2.540000000000000000, 0.0000000000000000000, 11.05000000000000100 ) ) ;
#230 = EDGE_LOOP ( 'NONE', ( #117 ) ) ;
#231 =( NAMED_UNIT ( * ) SI_UNIT ( $, .STERADIAN. ) SOLID_ANGLE_UNIT ( ) );
#232 = EDGE_CURVE ( 'NONE', #50, #50, #174, .T. ) ;
#233 = ORIENTED_EDGE ( 'NONE', *, *, #45, .F. ) ;
#234 = VERTEX_POINT ( 'NONE', #229 ) ;
#235 = AXIS2_PLACEMENT_3D ( 'NONE', #133, #245, #47 ) ;
#236 = FILL_AREA_STYLE_COLOUR ( '', #127 ) ;
#237 = CIRCLE ( 'NONE', #31, 12.69999999999999900 ) ;
#238 = CARTESIAN_POINT ( 'NONE',  ( -3.038388356863343600, 39.71346540353366800, -19.85673270176683400 ) ) ;
#239 = CARTESIAN_POINT ( 'NONE',  ( -2.616336506010520100, 39.99999999999999300, -19.99999999999999600 ) ) ;
#240 = AXIS2_PLACEMENT_3D ( 'NONE', #109, #37, #38 ) ;
#241 = CARTESIAN_POINT ( 'NONE',  ( -40.00000000000000000, 0.0000000000000000000, 11.05000000000000100 ) ) ;
#242 = CIRCLE ( 'NONE', #218, 11.05000000000000100 ) ;
#243 = DIRECTION ( 'NONE',  ( 0.0000000000000000000, 0.0000000000000000000, -1.000000000000000000 ) ) ;
#244 = CARTESIAN_POINT ( 'NONE',  ( 0.0000000000000000000, 0.0000000000000000000, 13.10000000000000100 ) ) ;
#245 = DIRECTION ( 'NONE',  ( -1.000000000000000000, 0.0000000000000000000, 0.0000000000000000000 ) ) ;
#246 =( GEOMETRIC_REPRESENTATION_CONTEXT ( 3 ) GLOBAL_UNCERTAINTY_ASSIGNED_CONTEXT ( ( #72 ) ) GLOBAL_UNIT_ASSIGNED_CONTEXT ( ( #98, #228, #48 ) ) REPRESENTATION_CONTEXT ( 'NONE', 'WORKASPACE' ) );
#247 = VERTEX_POINT ( 'NONE', #132 ) ;
#248 = CIRCLE ( 'NONE', #55, 20.00000000000000000 ) ;
#249 = ORIENTED_EDGE ( 'NONE', *, *, #106, .F. ) ;
#250 = VERTEX_POINT ( 'NONE', #241 ) ;
#251 = DIRECTION ( 'NONE',  ( 0.0000000000000000000, 0.0000000000000000000, 1.000000000000000000 ) ) ;
#252 = DIRECTION ( 'NONE',  ( 1.000000000000000000, -0.0000000000000000000, -0.0000000000000000000 ) ) ;
#253 = DIRECTION ( 'NONE',  ( 1.000000000000000000, -0.0000000000000000000, -0.0000000000000000000 ) ) ;
#254 = DIRECTION ( 'NONE',  ( 0.0000000000000000000, 0.0000000000000000000, 1.000000000000000000 ) ) ;
#255 = PRESENTATION_LAYER_ASSIGNMENT (  '', '', ( #153 ) ) ;
#256 = EDGE_LOOP ( 'NONE', ( #154 ) ) ;
#257 = PLANE ( 'NONE',  #175 ) ;
#258 = ADVANCED_FACE ( 'NONE', ( #80, #94 ), #115, .F. ) ;
ENDSEC;
END-ISO-10303-21;
